ISO-10303-21;
HEADER;
FILE_DESCRIPTION(('Creo Elements/Direct Modeling STEP Export'),'2;1');
FILE_NAME('MIXING_CHAMBER.stp','2018-02-21T13:13:20',(''),(''),
'Creo Elements/Direct Modeling STEP processor for AP214 (Solid Model)',
'Creo Elements/Direct Modeling 19.0F  14-Feb-2017 (C) Parametric Technol
ogy GmbH','');
FILE_SCHEMA(('AUTOMOTIVE_DESIGN { 1 0 10303 214 1 1 1 1 }'));
ENDSEC;
DATA;
#10=CARTESIAN_POINT('',(0.,0.,1.461334));
#20=DIRECTION('',(0.,0.,1.));
#30=DIRECTION('',(1.,0.,0.));
#40=AXIS2_PLACEMENT_3D('',#10,#20,#30);
#50=PLANE('',#40);
#60=CARTESIAN_POINT('',(0.,0.,1.461334));
#70=DIRECTION('',(0.,0.,1.));
#80=DIRECTION('',(1.,0.,0.));
#90=AXIS2_PLACEMENT_3D('',#60,#70,#80);
#100=CIRCLE('',#90,7.75584740311747);
#110=CARTESIAN_POINT('',(7.75584740311747,0.,1.461334));
#120=VERTEX_POINT('',#110);
#130=CARTESIAN_POINT('',(-7.75584740311747,0.,1.461334));
#140=VERTEX_POINT('',#130);
#150=EDGE_CURVE('',#120,#140,#100,.T.);
#160=ORIENTED_EDGE('',*,*,#150,.T.);
#170=CARTESIAN_POINT('',(-1.42472605453547E-15,-7.75584740311747,
1.461334));
#180=VERTEX_POINT('',#170);
#190=EDGE_CURVE('',#180,#120,#100,.T.);
#200=ORIENTED_EDGE('',*,*,#190,.T.);
#210=EDGE_CURVE('',#140,#180,#100,.T.);
#220=ORIENTED_EDGE('',*,*,#210,.T.);
#230=EDGE_LOOP('',(#220,#200,#160));
#240=FACE_BOUND('',#230,.T.);
#250=CARTESIAN_POINT('',(0.000975957552373785,0.000444828750374882,
1.461334));
#260=DIRECTION('',(0.,0.,1.));
#270=DIRECTION('',(1.,0.,0.));
#280=AXIS2_PLACEMENT_3D('',#250,#260,#270);
#290=CIRCLE('',#280,12.5);
#300=CARTESIAN_POINT('',(0.,12.5,1.461334));
#310=VERTEX_POINT('',#300);
#320=CARTESIAN_POINT('',(-1.53080849893419E-15,-12.5,1.461334));
#330=VERTEX_POINT('',#320);
#340=EDGE_CURVE('',#310,#330,#290,.T.);
#350=ORIENTED_EDGE('',*,*,#340,.F.);
#360=EDGE_CURVE('',#330,#310,#290,.T.);
#370=ORIENTED_EDGE('',*,*,#360,.F.);
#380=EDGE_LOOP('',(#370,#350));
#390=FACE_OUTER_BOUND('',#380,.T.);
#400=ADVANCED_FACE('',(#240,#390),#50,.F.);
#410=COLOUR_RGB('',0.788235366344452,0.81960791349411,0.929411828517914)
;
#420=FILL_AREA_STYLE_COLOUR('',#410);
#430=FILL_AREA_STYLE('',(#420));
#440=SURFACE_STYLE_FILL_AREA(#430);
#450=SURFACE_SIDE_STYLE('',(#440));
#460=SURFACE_STYLE_USAGE(.BOTH.,#450);
#470=PRESENTATION_STYLE_ASSIGNMENT((#460));
#480=CARTESIAN_POINT('',(0.,2.21421188675852E-15,2.25));
#490=DIRECTION('',(0.,0.,1.));
#500=DIRECTION('',(0.,1.,0.));
#510=AXIS2_PLACEMENT_3D('',#480,#490,#500);
#520=CYLINDRICAL_SURFACE('',#510,12.5);
#530=CARTESIAN_POINT('',(-1.53080849893419E-15,-12.5,2.25));
#540=DIRECTION('',(0.,0.,1.));
#550=VECTOR('',#540,1.);
#560=LINE('',#530,#550);
#570=CARTESIAN_POINT('',(-1.53080849893419E-15,-12.5,2.211334));
#580=VERTEX_POINT('',#570);
#590=EDGE_CURVE('',#330,#580,#560,.T.);
#600=ORIENTED_EDGE('',*,*,#590,.F.);
#610=CARTESIAN_POINT('',(0.000975957552373785,0.000444828750374882,
2.211334));
#620=DIRECTION('',(0.,0.,1.));
#630=DIRECTION('',(1.,0.,0.));
#640=AXIS2_PLACEMENT_3D('',#610,#620,#630);
#650=CIRCLE('',#640,12.5);
#660=CARTESIAN_POINT('',(0.,12.5,2.211334));
#670=VERTEX_POINT('',#660);
#680=EDGE_CURVE('',#580,#670,#650,.T.);
#690=ORIENTED_EDGE('',*,*,#680,.F.);
#700=CARTESIAN_POINT('',(0.,12.5,2.25));
#710=DIRECTION('',(0.,0.,1.));
#720=VECTOR('',#710,1.);
#730=LINE('',#700,#720);
#740=EDGE_CURVE('',#310,#670,#730,.T.);
#750=ORIENTED_EDGE('',*,*,#740,.T.);
#760=ORIENTED_EDGE('',*,*,#360,.T.);
#770=EDGE_LOOP('',(#760,#750,#690,#600));
#780=FACE_OUTER_BOUND('',#770,.T.);
#790=ADVANCED_FACE('',(#780),#520,.T.);
#800=COLOUR_RGB('',0.788235366344452,0.81960791349411,0.929411828517914)
;
#810=FILL_AREA_STYLE_COLOUR('',#800);
#820=FILL_AREA_STYLE('',(#810));
#830=SURFACE_STYLE_FILL_AREA(#820);
#840=SURFACE_SIDE_STYLE('',(#830));
#850=SURFACE_STYLE_USAGE(.BOTH.,#840);
#860=PRESENTATION_STYLE_ASSIGNMENT((#850));
#870=CARTESIAN_POINT('',(0.,0.,2.211334));
#880=DIRECTION('',(0.,0.,1.));
#890=DIRECTION('',(1.,0.,0.));
#900=AXIS2_PLACEMENT_3D('',#870,#880,#890);
#910=PLANE('',#900);
#920=ORIENTED_EDGE('',*,*,#680,.T.);
#930=EDGE_CURVE('',#670,#580,#650,.T.);
#940=ORIENTED_EDGE('',*,*,#930,.T.);
#950=EDGE_LOOP('',(#940,#920));
#960=FACE_OUTER_BOUND('',#950,.T.);
#970=CARTESIAN_POINT('',(0.,2.4980018054066E-16,2.211334));
#980=DIRECTION('',(0.,0.,1.));
#990=DIRECTION('',(-1.,0.,0.));
#1000=AXIS2_PLACEMENT_3D('',#970,#980,#990);
#1010=CIRCLE('',#1000,8.00000012127775);
#1020=CARTESIAN_POINT('',(0.,-8.00000012127775,2.21133399999999));
#1030=VERTEX_POINT('',#1020);
#1040=EDGE_CURVE('',#1030,#1030,#1010,.T.);
#1050=ORIENTED_EDGE('',*,*,#1040,.F.);
#1060=EDGE_LOOP('',(#1050));
#1070=FACE_BOUND('',#1060,.T.);
#1080=ADVANCED_FACE('',(#960,#1070),#910,.T.);
#1090=COLOUR_RGB('',0.788235366344452,0.81960791349411,0.929411828517914
);
#1100=FILL_AREA_STYLE_COLOUR('',#1090);
#1110=FILL_AREA_STYLE('',(#1100));
#1120=SURFACE_STYLE_FILL_AREA(#1110);
#1130=SURFACE_SIDE_STYLE('',(#1120));
#1140=SURFACE_STYLE_USAGE(.BOTH.,#1130);
#1150=PRESENTATION_STYLE_ASSIGNMENT((#1140));
#1160=CARTESIAN_POINT('',(0.,2.4980018054066E-16,0.));
#1170=DIRECTION('',(1.,-3.00964072940555E-17,0.));
#1180=DIRECTION('',(-3.00964072940555E-17,-1.,0.));
#1190=AXIS2_PLACEMENT_3D('',#1160,#1170,#1180);
#1200=SPHERICAL_SURFACE('',#1190,8.3);
#1210=ORIENTED_EDGE('',*,*,#1040,.T.);
#1220=EDGE_LOOP('',(#1210));
#1230=FACE_OUTER_BOUND('',#1220,.T.);
#1240=ADVANCED_FACE('',(#1230),#1200,.T.);
#1250=COLOUR_RGB('',0.788235366344452,0.81960791349411,0.929411828517914
);
#1260=FILL_AREA_STYLE_COLOUR('',#1250);
#1270=FILL_AREA_STYLE('',(#1260));
#1280=SURFACE_STYLE_FILL_AREA(#1270);
#1290=SURFACE_SIDE_STYLE('',(#1280));
#1300=SURFACE_STYLE_USAGE(.BOTH.,#1290);
#1310=PRESENTATION_STYLE_ASSIGNMENT((#1300));
#1320=CARTESIAN_POINT('',(0.,0.,0.));
#1330=DIRECTION('',(1.,0.,0.));
#1340=DIRECTION('',(0.,-1.,0.));
#1350=AXIS2_PLACEMENT_3D('',#1320,#1330,#1340);
#1360=SPHERICAL_SURFACE('',#1350,7.5);
#1370=CARTESIAN_POINT('',(0.,0.,1.838750625));
#1380=DIRECTION('',(0.,0.,1.));
#1390=DIRECTION('',(1.,0.,0.));
#1400=AXIS2_PLACEMENT_3D('',#1370,#1380,#1390);
#1410=CIRCLE('',#1400,7.27110694042263);
#1420=CARTESIAN_POINT('',(-1.335680676127E-15,-7.27110694042263,
1.838750625));
#1430=VERTEX_POINT('',#1420);
#1440=CARTESIAN_POINT('',(7.27110694042263,0.,1.838750625));
#1450=VERTEX_POINT('',#1440);
#1460=EDGE_CURVE('',#1430,#1450,#1410,.T.);
#1470=ORIENTED_EDGE('',*,*,#1460,.F.);
#1480=CARTESIAN_POINT('',(-7.27110694042263,0.,1.838750625));
#1490=VERTEX_POINT('',#1480);
#1500=EDGE_CURVE('',#1450,#1490,#1410,.T.);
#1510=ORIENTED_EDGE('',*,*,#1500,.F.);
#1520=EDGE_CURVE('',#1490,#1430,#1410,.T.);
#1530=ORIENTED_EDGE('',*,*,#1520,.F.);
#1540=EDGE_LOOP('',(#1530,#1510,#1470));
#1550=FACE_OUTER_BOUND('',#1540,.T.);
#1560=ADVANCED_FACE('',(#1550),#1360,.F.);
#1570=COLOUR_RGB('',0.788235366344452,0.81960791349411,0.929411828517914
);
#1580=FILL_AREA_STYLE_COLOUR('',#1570);
#1590=FILL_AREA_STYLE('',(#1580));
#1600=SURFACE_STYLE_FILL_AREA(#1590);
#1610=SURFACE_SIDE_STYLE('',(#1600));
#1620=SURFACE_STYLE_USAGE(.BOTH.,#1610);
#1630=PRESENTATION_STYLE_ASSIGNMENT((#1620));
#1640=CARTESIAN_POINT('',(0.,0.,1.961334));
#1650=DIRECTION('',(0.,0.,1.));
#1660=DIRECTION('',(1.,0.,0.));
#1670=AXIS2_PLACEMENT_3D('',#1640,#1650,#1660);
#1680=TOROIDAL_SURFACE('',#1670,7.75584740311747,0.5);
#1690=ORIENTED_EDGE('',*,*,#190,.F.);
#1700=CARTESIAN_POINT('',(7.75584740311747,0.,1.961334));
#1710=DIRECTION('',(0.,1.,0.));
#1720=DIRECTION('',(1.,0.,0.));
#1730=AXIS2_PLACEMENT_3D('',#1700,#1710,#1720);
#1740=CIRCLE('',#1730,0.5);
#1750=EDGE_CURVE('',#120,#1450,#1740,.T.);
#1760=ORIENTED_EDGE('',*,*,#1750,.F.);
#1770=ORIENTED_EDGE('',*,*,#1460,.T.);
#1780=ORIENTED_EDGE('',*,*,#1520,.T.);
#1790=CARTESIAN_POINT('',(-7.75584740311747,0.,1.961334));
#1800=DIRECTION('',(0.,-1.,0.));
#1810=DIRECTION('',(-1.,0.,0.));
#1820=AXIS2_PLACEMENT_3D('',#1790,#1800,#1810);
#1830=CIRCLE('',#1820,0.5);
#1840=EDGE_CURVE('',#140,#1490,#1830,.T.);
#1850=ORIENTED_EDGE('',*,*,#1840,.T.);
#1860=ORIENTED_EDGE('',*,*,#210,.F.);
#1870=EDGE_LOOP('',(#1860,#1850,#1780,#1770,#1760,#1690));
#1880=FACE_OUTER_BOUND('',#1870,.T.);
#1890=ADVANCED_FACE('',(#1880),#1680,.T.);
#1900=COLOUR_RGB('',0.788235366344452,0.81960791349411,0.929411828517914
);
#1910=FILL_AREA_STYLE_COLOUR('',#1900);
#1920=FILL_AREA_STYLE('',(#1910));
#1930=SURFACE_STYLE_FILL_AREA(#1920);
#1940=SURFACE_SIDE_STYLE('',(#1930));
#1950=SURFACE_STYLE_USAGE(.BOTH.,#1940);
#1960=PRESENTATION_STYLE_ASSIGNMENT((#1950));
#1970=CARTESIAN_POINT('',(0.,2.21421188675852E-15,2.25));
#1980=DIRECTION('',(0.,0.,1.));
#1990=DIRECTION('',(0.,1.,0.));
#2000=AXIS2_PLACEMENT_3D('',#1970,#1980,#1990);
#2010=CYLINDRICAL_SURFACE('',#2000,12.5);
#2020=ORIENTED_EDGE('',*,*,#590,.T.);
#2030=ORIENTED_EDGE('',*,*,#340,.T.);
#2040=ORIENTED_EDGE('',*,*,#740,.F.);
#2050=ORIENTED_EDGE('',*,*,#930,.F.);
#2060=EDGE_LOOP('',(#2050,#2040,#2030,#2020));
#2070=FACE_OUTER_BOUND('',#2060,.T.);
#2080=ADVANCED_FACE('',(#2070),#2010,.T.);
#2090=COLOUR_RGB('',0.788235366344452,0.81960791349411,0.929411828517914
);
#2100=FILL_AREA_STYLE_COLOUR('',#2090);
#2110=FILL_AREA_STYLE('',(#2100));
#2120=SURFACE_STYLE_FILL_AREA(#2110);
#2130=SURFACE_SIDE_STYLE('',(#2120));
#2140=SURFACE_STYLE_USAGE(.BOTH.,#2130);
#2150=PRESENTATION_STYLE_ASSIGNMENT((#2140));
#2160=CARTESIAN_POINT('',(0.,0.,1.961334));
#2170=DIRECTION('',(0.,0.,1.));
#2180=DIRECTION('',(1.,0.,0.));
#2190=AXIS2_PLACEMENT_3D('',#2160,#2170,#2180);
#2200=TOROIDAL_SURFACE('',#2190,7.75584740311747,0.5);
#2210=ORIENTED_EDGE('',*,*,#150,.F.);
#2220=ORIENTED_EDGE('',*,*,#1840,.F.);
#2230=ORIENTED_EDGE('',*,*,#1500,.T.);
#2240=ORIENTED_EDGE('',*,*,#1750,.T.);
#2250=EDGE_LOOP('',(#2240,#2230,#2220,#2210));
#2260=FACE_OUTER_BOUND('',#2250,.T.);
#2270=ADVANCED_FACE('',(#2260),#2200,.T.);
#2280=COLOUR_RGB('',0.788235366344452,0.81960791349411,0.929411828517914
);
#2290=FILL_AREA_STYLE_COLOUR('',#2280);
#2300=FILL_AREA_STYLE('',(#2290));
#2310=SURFACE_STYLE_FILL_AREA(#2300);
#2320=SURFACE_SIDE_STYLE('',(#2310));
#2330=SURFACE_STYLE_USAGE(.BOTH.,#2320);
#2340=PRESENTATION_STYLE_ASSIGNMENT((#2330));
#2350=CLOSED_SHELL('',(#400,#790,#1080,#1240,#1560,#1890,#2080,#2270));
#2360=MANIFOLD_SOLID_BREP('',#2350);
#2370=CARTESIAN_POINT('',(0.,0.,0.));
#2380=DIRECTION('',(0.,0.,1.));
#2390=DIRECTION('',(1.,0.,0.));
#2400=AXIS2_PLACEMENT_3D('',#2370,#2380,#2390);
#2410=APPLICATION_CONTEXT(' ');
#2420=APPLICATION_PROTOCOL_DEFINITION(' ','automotive_design',1998,#2410
);
#2430=PRODUCT_CONTEXT('',#2410,'mechanical');
#2440=PRODUCT_DEFINITION_CONTEXT('part definition',#2410,'design');
#2450=PRODUCT('DIFFUSORE_SFERICO','DIFFUSORE_SFERICO','',(#2430));
#2460=PRODUCT_RELATED_PRODUCT_CATEGORY('part',' ',(#2450));
#2470=PRODUCT_DEFINITION_FORMATION_WITH_SPECIFIED_SOURCE('','',#2450,
.BOUGHT.);
#2480=PRODUCT_DEFINITION('',' ',#2470,#2440);
#2490=PRODUCT_DEFINITION_SHAPE('','',#2480);
#2500=DIMENSIONAL_EXPONENTS(1.,0.,0.,0.,0.,0.,0.);
#2510=DIMENSIONAL_EXPONENTS(0.,0.,0.,0.,0.,0.,0.);
#2520=DIMENSIONAL_EXPONENTS(0.,0.,0.,0.,0.,0.,0.);
#2530=(LENGTH_UNIT() NAMED_UNIT(*) SI_UNIT(.MILLI.,.METRE.));
#2540=(NAMED_UNIT(*) PLANE_ANGLE_UNIT() SI_UNIT($,.RADIAN.));
#2550=(NAMED_UNIT(*) SI_UNIT($,.STERADIAN.) SOLID_ANGLE_UNIT());
#2560=(GEOMETRIC_REPRESENTATION_CONTEXT(3) 
GLOBAL_UNCERTAINTY_ASSIGNED_CONTEXT((#2570)) 
GLOBAL_UNIT_ASSIGNED_CONTEXT((#2530,#2540,#2550)) REPRESENTATION_CONTEXT
('',''));
#2570=UNCERTAINTY_MEASURE_WITH_UNIT(LENGTH_MEASURE(0.0036),#2530,
'distance_accuracy_value','maximum gap value');
#2580=ADVANCED_BREP_SHAPE_REPRESENTATION('',(#2400,#2360),#2560);
#2590=SHAPE_DEFINITION_REPRESENTATION(#2490,#2580);
#2600=COLOUR_RGB('',0.600000023841858,0.600000023841858,
0.600000023841858);
#2610=FILL_AREA_STYLE_COLOUR('',#2600);
#2620=FILL_AREA_STYLE('',(#2610));
#2630=SURFACE_STYLE_FILL_AREA(#2620);
#2640=SURFACE_SIDE_STYLE('',(#2630));
#2650=SURFACE_STYLE_USAGE(.BOTH.,#2640);
#2660=PRESENTATION_STYLE_ASSIGNMENT((#2650));
#2670=STYLED_ITEM('',(#2660),#2360);
#2680=OVER_RIDING_STYLED_ITEM('',(#470),#400,#2670);
#2690=OVER_RIDING_STYLED_ITEM('',(#860),#790,#2670);
#2700=OVER_RIDING_STYLED_ITEM('',(#1150),#1080,#2670);
#2710=OVER_RIDING_STYLED_ITEM('',(#1310),#1240,#2670);
#2720=OVER_RIDING_STYLED_ITEM('',(#1630),#1560,#2670);
#2730=OVER_RIDING_STYLED_ITEM('',(#1960),#1890,#2670);
#2740=OVER_RIDING_STYLED_ITEM('',(#2150),#2080,#2670);
#2750=OVER_RIDING_STYLED_ITEM('',(#2340),#2270,#2670);
#2760=DRAUGHTING_MODEL('',(#2670,#2680,#2690,#2700,#2710,#2720,#2730,
#2740,#2750),#2560);
#2770=CARTESIAN_POINT('',(-3.18240003522943E-14,3.97800004403679E-14,
0.731655));
#2780=DIRECTION('',(0.,0.,1.));
#2790=DIRECTION('',(1.,0.,0.));
#2800=AXIS2_PLACEMENT_3D('',#2770,#2780,#2790);
#2810=ITEM_DEFINED_TRANSFORMATION('DIFFUSORE_SFERICO','',#2400,#2800);
#2820=APPLICATION_CONTEXT(' ');
#2830=APPLICATION_PROTOCOL_DEFINITION(' ','automotive_design',1998,#2820
);
#2840=PRODUCT_CONTEXT('',#2820,'mechanical');
#2850=PRODUCT_DEFINITION_CONTEXT('part definition',#2820,'design');
#2860=PRODUCT('DIFFUSORE_SFERICO','DIFFUSORE_SFERICO','',(#2840));
#2870=PRODUCT_RELATED_PRODUCT_CATEGORY('part',' ',(#2860));
#2880=PRODUCT_DEFINITION_FORMATION_WITH_SPECIFIED_SOURCE('','',#2860,
.BOUGHT.);
#2890=PRODUCT_DEFINITION('',' ',#2880,#2850);
#2900=PRODUCT_DEFINITION_SHAPE('','',#2890);
#2910=DIMENSIONAL_EXPONENTS(1.,0.,0.,0.,0.,0.,0.);
#2920=DIMENSIONAL_EXPONENTS(0.,0.,0.,0.,0.,0.,0.);
#2930=DIMENSIONAL_EXPONENTS(0.,0.,0.,0.,0.,0.,0.);
#2940=(LENGTH_UNIT() NAMED_UNIT(*) SI_UNIT(.MILLI.,.METRE.));
#2950=(NAMED_UNIT(*) PLANE_ANGLE_UNIT() SI_UNIT($,.RADIAN.));
#2960=(NAMED_UNIT(*) SI_UNIT($,.STERADIAN.) SOLID_ANGLE_UNIT());
#2970=(GEOMETRIC_REPRESENTATION_CONTEXT(3) 
GLOBAL_UNCERTAINTY_ASSIGNED_CONTEXT((#2980)) 
GLOBAL_UNIT_ASSIGNED_CONTEXT((#2940,#2950,#2960)) REPRESENTATION_CONTEXT
('',''));
#2980=UNCERTAINTY_MEASURE_WITH_UNIT(LENGTH_MEASURE(0.0036),#2940,
'distance_accuracy_value','maximum gap value');
#2990=SHAPE_REPRESENTATION('',(#2400,#2800),#2970);
#3000=SHAPE_DEFINITION_REPRESENTATION(#2900,#2990);
#3010=(REPRESENTATION_RELATIONSHIP('','',#2580,#2990) 
REPRESENTATION_RELATIONSHIP_WITH_TRANSFORMATION(#2810) 
SHAPE_REPRESENTATION_RELATIONSHIP());
#3020=NEXT_ASSEMBLY_USAGE_OCCURRENCE('1','','DIFFUSORE_SFERICO',#2890,
#2480,'');
#3030=PRODUCT_DEFINITION_SHAPE('','',#3020);
#3040=CONTEXT_DEPENDENT_SHAPE_REPRESENTATION(#3010,#3030);
ENDSEC;
END-ISO-10303-21;
